Русский
GTA 5
Red Dead Redemption 2 GTA San Andreas
GTA Online GTA 6 GTA 4 GTA Vice City GTA 3 GTA CTW GTA VC Stories GTA LC Stories Rockstar Classics Модмейкерам
Прочее
Топ коммент за вчера
Shagg_E
вчера, 03:33
К публикации
Батл: GTA Mushroomia vs GTA Купянск
Сложный выбор.
Далее - чисто моё мнение, не претендующее на объективность.

С одной стороны - проработанный и атмосферный мод одного из лучших мировых модмейкеров. Мод, который лично я полюбил с первого запуска из-за стилистики и внимания к мелочам. Компактный и уютный городок, интересная сюжетка - всё это выглядит достойно и в 2019 году, спустя 8 лет после выхода.

С другой - спонтанно родившаяся и ставшая культурным феноменом масштабная коллаборация группы модмейкеров. Мод, полностью состоящий из стеба и угара, достойный представитель жанра трэш. Хорош для своего времени, но, к сожалению, лично для меня быстро устарел из-за плотного наполнения мемами, увы.

Поэтому мой голос всё-таки на стороне Mushroomia.


P.S.
Цитата: daniltk2
не на уровне dyom, как в Машрумии

Не видел такого в dyom.
Вообще, если внимательно изучить Mushroomia, то можно понять, что даже те вещи, что кажутся простыми на первый взгляд, на самом деле являются продуктом работы хитрых скриптов. К примеру: я уверен, что 90% игроков хоть раз уронили тыкву в одной из первых миссий из-за "случайного" наезда бомжей на квадроциклах. Это потому, что их езда только кажется беспорядочной.
Еще одна деталь: планировались новые модели людей. Автор от них отказался только потому, что решил, что это будет вредить сюжету. Профессиональный подход.
За это я и люблю этот мод. Такие вещи продолжают вдохновлять меня и по сей день.

P.P.S.
Кстати - есть патч для Mushroomia для тех, у кого вылетает во второй(Win7 и выше) или третьей(оригинальная блокировка) главе. В принципе, можно его выложить и сюда, если тут такие солянки патчей разрешены.

Shagg_E 20.03.2019, 02:47:06
Top uploaders
Top uploader
Dimon__gta

Лучший аплоадер прошлого месяца
Подписывайся!
ШИПЫ на дороге  
ШИПЫ на дороге для GTA San Andreas
Скачать файл
Рейтинг файла
+37
Рейтинг файла: +37
Всего оценок: 55
Посмотреть оценки

Категория: Файлы для GTA San Andreas
Раздел: МодыCLEO скрипты
Автор* файла:
E-mail / сайт: Связаться с автором
Размер файла: 0 байт
Файл заменяет: Неизвестно
Файл добавил: rapcentr
Дата добавления:
Скачиваний: 4711
Вы можете сделать свой обзор файла или снять игровой процесс с использованием мода, загрузить его на YouTube и добавить к описанию
Добавить видео
А еще вы можете добавить собственные скриншоты
CLEO шипы появляются на дороге при двух звёздах! Качественный мод!
Скриншоты
ШИПЫ на дороге для GTA San Andreas
Понравился файл?
Скриншоты игроков
Добавить скриншоты
Вы можете сделать свои скриншоты игрового процесса с использованием модификации и загрузить их
Вы можете сделать свой обзор файла или снять игровой процесс с использованием мода, загрузить его на YouTube и добавить к описанию
Добавить видео

Шипы на дороге

27 сентября 2010 GTA San Andreas
Вспоминаем старый добрый Vice City, когда менты ставили на дорогах шипы.А то в Вайс копы шипы ставят, а в Сане - нет, что за беспредел!Доработано мной т.е. devil_deathЯ пару строк подправил чтоб меньше вылетов было! :)...

Ситуация на дороге (By Dakurlz)

25 ноября 2012 GTA San Andreas
Перед вами ещё один скрипт на тему реалистика. Подобный скрипт добавлял "Mos_cracin" это можно сказать версия 2. Теперь на дорогах Сан Андреса вы можете встретить водителей, у которых проблемы с авто. Так же вы можете помочь им.* Теперь водители появ...

Газеты на дорогах для GTA SA

28 сентября 2016 GTA San Andreas
Газеты на дорогах для GTA SA============================== ---- Описание:Мод добавляет на тротуары и дороги газеты, как в Vice City.Особенности:- 2 вида газет- Разное расположение газет на дорогах- Газеты не появляются за пределами городовПроблемы:-...

Газеты на дорогах [Изменённая версия] v2

13 сентября 2017 GTA San Andreas
Модификация больше не поддерживается автором.Небольшое исправление для моей версии "газет на дорогах".- Изменена схема перемещения газет. При перемещении они ещё и вращаются.- Предпринята попытка избавиться от бага, из-за которого газеты пр...

Мусор на дорогах из GTA VC

14 января 2018 GTA San Andreas
Вышла новая версия.Насколько мы знаем, в GTA 3 и VC можно увидеть всякий мусор на дорогах, вроде газет и листьев с деревьев. Недолго думая, я решил перенести это и в SA, тем более, что мой давний похожий мод успехом особо не увенчался.В этой же верси...

Мусор на дорогах как в GTA VC v2

21 января 2018 GTA San Andreas
Предпоследняя версия моего скрипта про мусор на дорогах. В предыдущей версии - этот мод описан более детально.Новую версию же вы можете скачать здесь.В этой версии весь мусор стал немного прозрачным, как в GTA VC. Также добавлена ещё одна фича из VC,...

Мусор на дорогах как в GTA VC (или GTA 3) v3 - Final

2 февраля 2018 GTA San Andreas
Внимание, файл был перезалит! Все, кто скачал его ДО 7 апреля 2018, рекомендую скачать его заново!Последняя версия моего мода про газеты и прочий мусор, который появляется на местности и ведёт себя точно так же, как в предыдущих играх серии GTA 3D.По...

[!] Если у вас возникли проблемы при установке файла, то прочтите инструкцию по установке файлов для GTA San Andreas или обратитесь на форум.

[!] Если вы считаете, что этот файл уже был добавлен в архив ранее, то сообщите, пожалуйста, об этом администратору с указанием ссылок на этот и добавленный ранее файл.



Лучший коммент написан, 1 января 2012, 00:45
Цитировать выделенное #
Razor78
Пользователь
Статус:
Комментариев:375
Друзей:38
Репутация: 3
Деньги: 0$
Награды:: 2
Цитировать #
+1
Ого прям как в вайсе

--------------------


Добавление комментария
(Гость)

Уважаемые посетители, убедительная просьба, в сообщениях оставленных вами, не использовать ненормативную лексику, информацию рекламного характера и ссылки на другие ресурсы. В противном случае администрация сайта имеет право заблокировать доступ к некоторым функциям сайта, или удалить ваш аккаунт без объяснения причин.

12
комментарий написан, 20 декабря 2012, 22:55
Цитировать выделенное #
andre500
Администратор
Статус:
Комментариев:1691
Друзей:538
Репутация: 486
Деньги: -666$
Награды:: 20
GForums: andre500

Karma: 15430
Цитировать #
0
хех 0 байт меня убило lol файлу +

--------------------


--------------------

11
комментарий написан, 1 января 2012, 00:45
Цитировать выделенное #
Razor78
Пользователь
Статус:
Комментариев:375
Друзей:38
Репутация: 3
Деньги: 0$
Награды:: 2


Karma: 19
Цитировать #
+1
Ого прям как в вайсе

--------------------

10
комментарий написан, 26 сентября 2011, 19:55
Цитировать выделенное #
Dimon__gta
VIP-пользователь
Top uploader
Пользователь
Статус:
Комментариев:3672
Друзей:217
Репутация: 569
Деньги: 6$
Награды:: 21
GForums: Dimon_gta

Karma: 17573
Цитировать #
0
крутой скрипт+

--------------------


--------------------

9
комментарий написан, 25 августа 2011, 10:00
Цитировать выделенное #
GTA GTA GTA
Пользователь
Статус:
Комментариев:13
Друзей:0
Репутация: 0
Деньги: 0$
Цитировать #
0
Yaros1999,
нормальнно +

--------------------

8
комментарий написан, 18 февраля 2011, 19:21
Цитировать выделенное #
Bonys10
Пользователь
Статус:
Комментариев:278
Друзей:29
Репутация: 11
Деньги: 0$
Цитировать #
0
Робит отлично!

--------------------

7
комментарий написан, 5 февраля 2011, 00:34
Цитировать выделенное #
Alnemus
Пользователь
Статус:
Комментариев:1834
Друзей:5
Репутация: 5
Деньги: 0$
Награды:: 1


Karma: 1
Цитировать #
0
Прикольно!!

--------------------

6
комментарий написан, 4 февраля 2011, 07:03
Цитировать выделенное #
Yaros1999
Пользователь
Статус:
Комментариев:31
Друзей:0
Репутация: 0
Деньги: 0$
Цитировать #
0
----------------------|88888888|
----------------------|88|---|88|
----------------------|88|---|88|
----------------------|88|---|88|
----------------------|88|---|88|
--------|888888888888|---|88888888888|
--------|88|-----------------------------|88|
--------|88|-----------------------------|88|
--------|88888888888|----|88888888888|
----------------------|88|---|88|
----------------------|88|---|88|
----------------------|88|---|88|
----------------------|88|---|88|
----------------------|88888888|


--------88888888888888--------------------------888888888888888
-------888-------------88-------------------------888----------------888
-----888---------------88----------------------888----------------------888
----888----------------88-------------------888--------------------------- 888
---888-----------------88-----------------888---------------------------------88
8
--888------------------88-----------------88-----------------------------------8
8
-888-------------------88-----------------88-----------------------------------8
8
-88888888-------------88----------------88---------------8888---------------88
-------888-------------88-----------------88---------------8888---------------88

-------888-------------88-----------------88---------------8888---------------88

-------888-------------88-----------------88---------------8888---------------88

-------888-------------88-----------------88---------------8888---------------88

-------888-------------88-----------------88---------------8888---------------88

-------888-------------88-----------------88---------------8888---------------88

-------888-------------88-----------------88---------------8888---------------88

-------888-------------88-----------------88---------------8888---------------88

-------888-------------88-----------------88---------------8888---------------88

--8888888-------------888888-----------88---------------8888---------------88
--88--------------------------88----------88-----------------------------------8
8
--88--------------------------88----------88-----------------------------------8
8
--88--------------------------88-----------888-------------------------------888

--88--------------------------88--------------888--------------------------888
--88--------------------------88----------------888---------------------888
--88--------------------------88------------------888----------------888
--88888888888888888888888 -------------------888888888888888

--------------------


--------------------

5
комментарий написан, 28 сентября 2010, 15:46
Цитировать выделенное #
GTAking
Пользователь
Статус:
Комментариев:6
Друзей:0
Репутация: 0
Деньги: 0$

Karma: 8
Цитировать #
0
Vladyslav77777,
Шипов в игре нет!

--------------------

4
комментарий написан, 13 сентября 2010, 12:11
Цитировать выделенное #
ATLANTIS
Пользователь
Статус:
Комментариев:37
Друзей:0
Репутация: 0
Деньги: 0$

Karma: 92
Цитировать #
0
Мод хороший но если бы рядом с шипами были полицейские машины как в карбоне или полицейский как в вай сити было бы реальнее

--------------------


--------------------

3
комментарий написан, 28 июля 2010, 01:01
Цитировать выделенное #
Vladyslav77777
Пользователь
Статус:
Комментариев:1097
Друзей:0
Репутация: 3
Деньги: 0$

Karma: 112
Цитировать #
-1
Шыпы на дорогах и так есть belay

--------------------

2
комментарий написан, 18 июня 2010, 23:00
Цитировать выделенное #
Master_Andr
Пользователь
Статус:
Комментариев:477
Друзей:3
Репутация: 59
Деньги: 0$

Karma: 2920
Цитировать #
0
Всё прекрасно работает,но не при 2-х звёздах,а при 3-х.В самом мкрипте написано Player.WantedLevel($PLAYER_CHAR) > 2,это значит больше 2-х,может из-за этого не работает?

--------------------


--------------------

1
комментарий написан, 17 июня 2010, 13:46
Цитировать выделенное #
gta cj567
Пользователь
Статус:
Комментариев:16
Друзей:0
Репутация: 0
Деньги: 0$
Цитировать #
0
как вайс сити

--------------------


--------------------

Опрос
Играете ли вы в GTA Online?
Играю
Не играю совсем

Подсчет GTAшников

Рейтинг@Mail.ru





Change language


Помогите нам перевести LibertyCity на другой язык!



Ad